ISO-10303-21;
HEADER;
FILE_DESCRIPTION (( 'STEP AP203' ),
    '1' );
FILE_NAME ('500003_c_1.STEP',
    '2023-05-11T15:16:52',
    ( '' ),
    ( '' ),
    'SwSTEP 2.0',
    'SolidWorks 2014',
    '' );
FILE_SCHEMA (( 'CONFIG_CONTROL_DESIGN' ));
ENDSEC;

DATA;
#1 = APPLICATION_CONTEXT ( 'configuration controlled 3d designs of mechanical parts and assemblies' ) ;
#2 =( LENGTH_UNIT ( ) NAMED_UNIT ( * ) SI_UNIT ( .MILLI., .METRE. ) );
#3 = COORDINATED_UNIVERSAL_TIME_OFFSET ( 8, 0, .BEHIND. ) ;
#4 = VECTOR ( 'NONE', #21, 1000.000000000000000 ) ;
#5 = DATE_AND_TIME ( #82, #212 ) ;
#6 = DIRECTION ( 'NONE',  ( -1.000000000000000000, 0.0000000000000000000, -0.0000000000000000000 ) ) ;
#7 = PLANE ( 'NONE',  #177 ) ;
#8 = ORIENTED_EDGE ( 'NONE', *, *, #221, .T. ) ;
#9 = LOCAL_TIME ( 8, 16, 52.00000000000000000, #218 ) ;
#10 = AXIS2_PLACEMENT_3D ( 'NONE', #230, #24, #135 ) ;
#11 = FACE_OUTER_BOUND ( 'NONE', #51, .T. ) ;
#12 = VERTEX_POINT ( 'NONE', #207 ) ;
#13 = CALENDAR_DATE ( 2023, 11, 5 ) ;
#14 = DIRECTION ( 'NONE',  ( 0.0000000000000000000, 0.0000000000000000000, -1.000000000000000000 ) ) ;
#15 = DIRECTION ( 'NONE',  ( 0.0000000000000000000, 1.000000000000000000, 0.0000000000000000000 ) ) ;
#16 = VECTOR ( 'NONE', #143, 1000.000000000000000 ) ;
#17 = LOCAL_TIME ( 8, 16, 52.00000000000000000, #22 ) ;
#18 = CARTESIAN_POINT ( 'NONE',  ( -625.0000000000000000, -1250.000000000000000, 0.0000000000000000000 ) ) ;
#19 = VERTEX_POINT ( 'NONE', #209 ) ;
#20 = EDGE_CURVE ( 'NONE', #156, #103, #67, .T. ) ;
#21 = DIRECTION ( 'NONE',  ( -0.0000000000000000000, -1.000000000000000000, -0.0000000000000000000 ) ) ;
#22 = COORDINATED_UNIVERSAL_TIME_OFFSET ( 8, 0, .BEHIND. ) ;
#23 = FACE_OUTER_BOUND ( 'NONE', #187, .T. ) ;
#24 = DIRECTION ( 'NONE',  ( -1.000000000000000000, 0.0000000000000000000, 0.0000000000000000000 ) ) ;
#25 = CC_DESIGN_PERSON_AND_ORGANIZATION_ASSIGNMENT ( #94, #198, ( #74 ) ) ;
#26 = ORIENTED_EDGE ( 'NONE', *, *, #182, .T. ) ;
#27 = PLANE ( 'NONE',  #104 ) ;
#28 = ADVANCED_FACE ( 'NONE', ( #129 ), #154, .T. ) ;
#29 = PRODUCT_DEFINITION ( 'UNKNOWN', '', #74, #222 ) ;
#30 = ORIENTED_EDGE ( 'NONE', *, *, #87, .F. ) ;
#31 = EDGE_CURVE ( 'NONE', #62, #91, #32, .T. ) ;
#32 = LINE ( 'NONE', #122, #45 ) ;
#33 = EDGE_LOOP ( 'NONE', ( #227, #8, #130, #172 ) ) ;
#34 = MECHANICAL_CONTEXT ( 'NONE', #237, 'mechanical' ) ;
#35 = CARTESIAN_POINT ( 'NONE',  ( 0.0000000000000000000, 0.0000000000000000000, 0.0000000000000000000 ) ) ;
#36 =( NAMED_UNIT ( * ) PLANE_ANGLE_UNIT ( ) SI_UNIT ( $, .RADIAN. ) );
#37 = LINE ( 'NONE', #217, #112 ) ;
#38 = APPROVAL_STATUS ( 'not_yet_approved' ) ;
#39 = CC_DESIGN_PERSON_AND_ORGANIZATION_ASSIGNMENT ( #236, #55, ( #116 ) ) ;
#40 = PERSON ( 'UNSPECIFIED', 'UNSPECIFIED', 'UNSPECIFIED', ('UNSPECIFIED'), ('UNSPECIFIED'), ('UNSPECIFIED') ) ;
#41 = ORIENTED_EDGE ( 'NONE', *, *, #175, .T. ) ;
#42 = CC_DESIGN_PERSON_AND_ORGANIZATION_ASSIGNMENT ( #80, #185, ( #74 ) ) ;
#43 = UNCERTAINTY_MEASURE_WITH_UNIT (LENGTH_MEASURE( 1.000000000000000100E-005 ), #2, 'distance_accuracy_value', 'NONE');
#44 = CC_DESIGN_PERSON_AND_ORGANIZATION_ASSIGNMENT ( #161, #128, ( #29 ) ) ;
#45 = VECTOR ( 'NONE', #170, 1000.000000000000000 ) ;
#46 = CARTESIAN_POINT ( 'NONE',  ( -625.0000000000000000, 1249.999999999999500, 3.000000000000000000 ) ) ;
#47 = EDGE_LOOP ( 'NONE', ( #160, #41, #228, #97 ) ) ;
#48 = CALENDAR_DATE ( 2023, 11, 5 ) ;
#49 = DIRECTION ( 'NONE',  ( 0.0000000000000000000, -0.0000000000000000000, -1.000000000000000000 ) ) ;
#50 = APPROVAL ( #183, 'UNSPECIFIED' ) ;
#51 = EDGE_LOOP ( 'NONE', ( #168, #140, #196, #30 ) ) ;
#52 = CLOSED_SHELL ( 'NONE', ( #96, #155, #134, #169, #71, #28 ) ) ;
#53 = LOCAL_TIME ( 8, 16, 52.00000000000000000, #141 ) ;
#54 = DIRECTION ( 'NONE',  ( 1.000000000000000000, 0.0000000000000000000, 0.0000000000000000000 ) ) ;
#55 = PERSON_AND_ORGANIZATION_ROLE ( 'design_owner' ) ;
#56 = CC_DESIGN_DATE_AND_TIME_ASSIGNMENT ( #118, #163, ( #29 ) ) ;
#57 = APPLICATION_PROTOCOL_DEFINITION ( 'international standard', 'config_control_design', 1994, #237 ) ;
#58 = LINE ( 'NONE', #220, #223 ) ;
#59 = PERSON_AND_ORGANIZATION_ROLE ( 'classification_officer' ) ;
#60 = AXIS2_PLACEMENT_3D ( 'NONE', #46, #213, #49 ) ;
#61 = CARTESIAN_POINT ( 'NONE',  ( 625.0000000000000000, -1250.000000000000000, 0.0000000000000000000 ) ) ;
#62 = VERTEX_POINT ( 'NONE', #224 ) ;
#63 = SHAPE_DEFINITION_REPRESENTATION ( #99, #191 ) ;
#64 = CC_DESIGN_APPROVAL ( #206, ( #72 ) ) ;
#65 = CARTESIAN_POINT ( 'NONE',  ( -625.0000000000000000, 1249.999999999999500, 3.000000000000000000 ) ) ;
#66 = DIRECTION ( 'NONE',  ( 0.0000000000000000000, -0.0000000000000000000, 1.000000000000000000 ) ) ;
#67 = LINE ( 'NONE', #136, #132 ) ;
#68 = ORIENTED_EDGE ( 'NONE', *, *, #31, .F. ) ;
#69 = DATE_AND_TIME ( #73, #17 ) ;
#70 = DIRECTION ( 'NONE',  ( -1.000000000000000000, -0.0000000000000000000, 0.0000000000000000000 ) ) ;
#71 = ADVANCED_FACE ( 'NONE', ( #23 ), #7, .F. ) ;
#72 = SECURITY_CLASSIFICATION ( '', '', #83 ) ;
#73 = CALENDAR_DATE ( 2023, 11, 5 ) ;
#74 = PRODUCT_DEFINITION_FORMATION_WITH_SPECIFIED_SOURCE ( 'ANY', '', #116, .NOT_KNOWN. ) ;
#75 = CARTESIAN_POINT ( 'NONE',  ( -625.0000000000000000, 1249.999999999999500, 0.0000000000000000000 ) ) ;
#76 = VECTOR ( 'NONE', #195, 1000.000000000000000 ) ;
#77 = VERTEX_POINT ( 'NONE', #133 ) ;
#78 =( GEOMETRIC_REPRESENTATION_CONTEXT ( 3 ) GLOBAL_UNCERTAINTY_ASSIGNED_CONTEXT ( ( #43 ) ) GLOBAL_UNIT_ASSIGNED_CONTEXT ( ( #2, #36, #102 ) ) REPRESENTATION_CONTEXT ( 'NONE', 'WORKASPACE' ) );
#79 = APPLICATION_PROTOCOL_DEFINITION ( 'international standard', 'config_control_design', 1994, #1 ) ;
#80 = PERSON_AND_ORGANIZATION ( #40, #208 ) ;
#81 = APPROVAL_ROLE ( '' ) ;
#82 = CALENDAR_DATE ( 2023, 11, 5 ) ;
#83 = SECURITY_CLASSIFICATION_LEVEL ( 'unclassified' ) ;
#84 = CC_DESIGN_SECURITY_CLASSIFICATION ( #72, ( #74 ) ) ;
#85 = APPROVAL_ROLE ( '' ) ;
#86 = ORIENTED_EDGE ( 'NONE', *, *, #119, .F. ) ;
#87 = EDGE_CURVE ( 'NONE', #12, #156, #88, .T. ) ;
#88 = LINE ( 'NONE', #105, #4 ) ;
#89 = PERSON_AND_ORGANIZATION ( #40, #208 ) ;
#90 = APPROVAL ( #184, 'UNSPECIFIED' ) ;
#91 = VERTEX_POINT ( 'NONE', #61 ) ;
#92 = CARTESIAN_POINT ( 'NONE',  ( -625.0000000000000000, -1250.000000000000000, 0.0000000000000000000 ) ) ;
#93 = FACE_OUTER_BOUND ( 'NONE', #33, .T. ) ;
#94 = PERSON_AND_ORGANIZATION ( #40, #208 ) ;
#95 = DIRECTION ( 'NONE',  ( -1.000000000000000000, 0.0000000000000000000, -0.0000000000000000000 ) ) ;
#96 = ADVANCED_FACE ( 'NONE', ( #11 ), #205, .F. ) ;
#97 = ORIENTED_EDGE ( 'NONE', *, *, #165, .T. ) ;
#98 = CC_DESIGN_APPROVAL ( #50, ( #29 ) ) ;
#99 = PRODUCT_DEFINITION_SHAPE ( 'NONE', 'NONE',  #29 ) ;
#100 = VECTOR ( 'NONE', #171, 1000.000000000000000 ) ;
#101 = APPROVAL_PERSON_ORGANIZATION ( #204, #90, #81 ) ;
#102 =( NAMED_UNIT ( * ) SI_UNIT ( $, .STERADIAN. ) SOLID_ANGLE_UNIT ( ) );
#103 = VERTEX_POINT ( 'NONE', #189 ) ;
#104 = AXIS2_PLACEMENT_3D ( 'NONE', #234, #113, #14 ) ;
#105 = CARTESIAN_POINT ( 'NONE',  ( 625.0000000000000000, 0.0000000000000000000, 3.000000000000000000 ) ) ;
#106 = VECTOR ( 'NONE', #70, 1000.000000000000000 ) ;
#107 = CARTESIAN_POINT ( 'NONE',  ( 0.0000000000000000000, 0.0000000000000000000, 3.000000000000000000 ) ) ;
#108 = AXIS2_PLACEMENT_3D ( 'NONE', #173, #210, #231 ) ;
#109 = ORIENTED_EDGE ( 'NONE', *, *, #87, .T. ) ;
#110 = PRODUCT_RELATED_PRODUCT_CATEGORY ( 'detail', '', ( #116 ) ) ;
#111 = ORIENTED_EDGE ( 'NONE', *, *, #235, .T. ) ;
#112 = VECTOR ( 'NONE', #145, 1000.000000000000000 ) ;
#113 = DIRECTION ( 'NONE',  ( 1.000000000000000000, -0.0000000000000000000, 0.0000000000000000000 ) ) ;
#114 = ORIENTED_EDGE ( 'NONE', *, *, #165, .F. ) ;
#115 = APPROVAL_PERSON_ORGANIZATION ( #157, #206, #200 ) ;
#116 = PRODUCT ( '500003_c_1', '500003_c_1', '', ( #34 ) ) ;
#117 = ORIENTED_EDGE ( 'NONE', *, *, #175, .F. ) ;
#118 = DATE_AND_TIME ( #48, #53 ) ;
#119 = EDGE_CURVE ( 'NONE', #77, #19, #147, .T. ) ;
#120 = CC_DESIGN_APPROVAL ( #90, ( #74 ) ) ;
#121 = FACE_OUTER_BOUND ( 'NONE', #159, .T. ) ;
#122 = CARTESIAN_POINT ( 'NONE',  ( 625.0000000000000000, -1250.000000000000000, 0.0000000000000000000 ) ) ;
#123 = CARTESIAN_POINT ( 'NONE',  ( -625.0000000000000000, -1250.000000000000000, 3.000000000000000000 ) ) ;
#124 = MANIFOLD_SOLID_BREP ( 'NONE', #52 ) ;
#125 = FACE_OUTER_BOUND ( 'NONE', #176, .T. ) ;
#126 = DIRECTION ( 'NONE',  ( 0.0000000000000000000, 0.0000000000000000000, -1.000000000000000000 ) ) ;
#127 = ORIENTED_EDGE ( 'NONE', *, *, #219, .F. ) ;
#128 = PERSON_AND_ORGANIZATION_ROLE ( 'creator' ) ;
#129 = FACE_OUTER_BOUND ( 'NONE', #47, .T. ) ;
#130 = ORIENTED_EDGE ( 'NONE', *, *, #119, .T. ) ;
#131 = VECTOR ( 'NONE', #179, 1000.000000000000000 ) ;
#132 = VECTOR ( 'NONE', #95, 1000.000000000000000 ) ;
#133 = CARTESIAN_POINT ( 'NONE',  ( -625.0000000000000000, 1249.999999999999500, 3.000000000000000000 ) ) ;
#134 = ADVANCED_FACE ( 'NONE', ( #121 ), #153, .F. ) ;
#135 = DIRECTION ( 'NONE',  ( 0.0000000000000000000, 0.0000000000000000000, 1.000000000000000000 ) ) ;
#136 = CARTESIAN_POINT ( 'NONE',  ( 0.0000000000000000000, -1250.000000000000000, 3.000000000000000000 ) ) ;
#137 = CARTESIAN_POINT ( 'NONE',  ( 625.0000000000000000, -1250.000000000000000, 3.000000000000000000 ) ) ;
#138 = VECTOR ( 'NONE', #126, 1000.000000000000000 ) ;
#139 = CARTESIAN_POINT ( 'NONE',  ( -625.0000000000000000, -1250.000000000000000, 3.000000000000000000 ) ) ;
#140 = ORIENTED_EDGE ( 'NONE', *, *, #221, .F. ) ;
#141 = COORDINATED_UNIVERSAL_TIME_OFFSET ( 8, 0, .BEHIND. ) ;
#142 = CARTESIAN_POINT ( 'NONE',  ( -625.0000000000000000, -1250.000000000000000, 0.0000000000000000000 ) ) ;
#143 = DIRECTION ( 'NONE',  ( 1.000000000000000000, -0.0000000000000000000, 0.0000000000000000000 ) ) ;
#144 = LINE ( 'NONE', #75, #76 ) ;
#145 = DIRECTION ( 'NONE',  ( -0.0000000000000000000, -0.0000000000000000000, -1.000000000000000000 ) ) ;
#146 = DIRECTION ( 'NONE',  ( 0.0000000000000000000, 0.0000000000000000000, 1.000000000000000000 ) ) ;
#147 = LINE ( 'NONE', #65, #164 ) ;
#148 = CC_DESIGN_PERSON_AND_ORGANIZATION_ASSIGNMENT ( #162, #59, ( #72 ) ) ;
#149 = APPROVAL_DATE_TIME ( #166, #50 ) ;
#150 = EDGE_CURVE ( 'NONE', #91, #156, #194, .T. ) ;
#151 = ORIENTED_EDGE ( 'NONE', *, *, #20, .T. ) ;
#152 = APPROVAL_DATE_TIME ( #211, #206 ) ;
#153 = PLANE ( 'NONE',  #60 ) ;
#154 = PLANE ( 'NONE',  #108 ) ;
#155 = ADVANCED_FACE ( 'NONE', ( #125 ), #233, .F. ) ;
#156 = VERTEX_POINT ( 'NONE', #158 ) ;
#157 = PERSON_AND_ORGANIZATION ( #40, #208 ) ;
#158 = CARTESIAN_POINT ( 'NONE',  ( 625.0000000000000000, -1250.000000000000000, 3.000000000000000000 ) ) ;
#159 = EDGE_LOOP ( 'NONE', ( #86, #111, #178, #117 ) ) ;
#160 = ORIENTED_EDGE ( 'NONE', *, *, #203, .T. ) ;
#161 = PERSON_AND_ORGANIZATION ( #40, #208 ) ;
#162 = PERSON_AND_ORGANIZATION ( #40, #208 ) ;
#163 = DATE_TIME_ROLE ( 'creation_date' ) ;
#164 = VECTOR ( 'NONE', #192, 1000.000000000000000 ) ;
#165 = EDGE_CURVE ( 'NONE', #91, #216, #226, .T. ) ;
#166 = DATE_AND_TIME ( #201, #229 ) ;
#167 = APPROVAL_PERSON_ORGANIZATION ( #89, #50, #85 ) ;
#168 = ORIENTED_EDGE ( 'NONE', *, *, #235, .F. ) ;
#169 = ADVANCED_FACE ( 'NONE', ( #93 ), #27, .F. ) ;
#170 = DIRECTION ( 'NONE',  ( -0.0000000000000000000, -1.000000000000000000, 0.0000000000000000000 ) ) ;
#171 = DIRECTION ( 'NONE',  ( 0.0000000000000000000, 0.0000000000000000000, 1.000000000000000000 ) ) ;
#172 = ORIENTED_EDGE ( 'NONE', *, *, #203, .F. ) ;
#173 = CARTESIAN_POINT ( 'NONE',  ( 0.0000000000000000000, 0.0000000000000000000, 0.0000000000000000000 ) ) ;
#174 = ORIENTED_EDGE ( 'NONE', *, *, #150, .F. ) ;
#175 = EDGE_CURVE ( 'NONE', #19, #62, #144, .T. ) ;
#176 = EDGE_LOOP ( 'NONE', ( #127, #109, #174, #68 ) ) ;
#177 = AXIS2_PLACEMENT_3D ( 'NONE', #139, #225, #66 ) ;
#178 = ORIENTED_EDGE ( 'NONE', *, *, #219, .T. ) ;
#179 = DIRECTION ( 'NONE',  ( 0.0000000000000000000, 1.000000000000000000, 0.0000000000000000000 ) ) ;
#180 = ORIENTED_EDGE ( 'NONE', *, *, #150, .T. ) ;
#181 = APPROVAL_DATE_TIME ( #5, #90 ) ;
#182 = EDGE_CURVE ( 'NONE', #103, #216, #190, .T. ) ;
#183 = APPROVAL_STATUS ( 'not_yet_approved' ) ;
#184 = APPROVAL_STATUS ( 'not_yet_approved' ) ;
#185 = PERSON_AND_ORGANIZATION_ROLE ( 'design_supplier' ) ;
#186 = DATE_TIME_ROLE ( 'classification_date' ) ;
#187 = EDGE_LOOP ( 'NONE', ( #180, #151, #26, #114 ) ) ;
#188 = LINE ( 'NONE', #202, #16 ) ;
#189 = CARTESIAN_POINT ( 'NONE',  ( -625.0000000000000000, -1250.000000000000000, 3.000000000000000000 ) ) ;
#190 = LINE ( 'NONE', #123, #138 ) ;
#191 = ADVANCED_BREP_SHAPE_REPRESENTATION ( '500003_c_1', ( #124, #232 ), #78 ) ;
#192 = DIRECTION ( 'NONE',  ( 0.0000000000000000000, -0.0000000000000000000, -1.000000000000000000 ) ) ;
#193 = DIRECTION ( 'NONE',  ( 0.0000000000000000000, 0.0000000000000000000, -1.000000000000000000 ) ) ;
#194 = LINE ( 'NONE', #137, #100 ) ;
#195 = DIRECTION ( 'NONE',  ( 1.000000000000000000, 0.0000000000000000000, 0.0000000000000000000 ) ) ;
#196 = ORIENTED_EDGE ( 'NONE', *, *, #20, .F. ) ;
#197 = COORDINATED_UNIVERSAL_TIME_OFFSET ( 8, 0, .BEHIND. ) ;
#198 = PERSON_AND_ORGANIZATION_ROLE ( 'creator' ) ;
#199 = CC_DESIGN_DATE_AND_TIME_ASSIGNMENT ( #69, #186, ( #72 ) ) ;
#200 = APPROVAL_ROLE ( '' ) ;
#201 = CALENDAR_DATE ( 2023, 11, 5 ) ;
#202 = CARTESIAN_POINT ( 'NONE',  ( 0.0000000000000000000, 1249.999999999999500, 3.000000000000000000 ) ) ;
#203 = EDGE_CURVE ( 'NONE', #216, #19, #215, .T. ) ;
#204 = PERSON_AND_ORGANIZATION ( #40, #208 ) ;
#205 = PLANE ( 'NONE',  #214 ) ;
#206 = APPROVAL ( #38, 'UNSPECIFIED' ) ;
#207 = CARTESIAN_POINT ( 'NONE',  ( 625.0000000000000000, 1249.999999999999500, 3.000000000000000000 ) ) ;
#208 = ORGANIZATION ( 'UNSPECIFIED', 'UNSPECIFIED', '' ) ;
#209 = CARTESIAN_POINT ( 'NONE',  ( -625.0000000000000000, 1249.999999999999500, 0.0000000000000000000 ) ) ;
#210 = DIRECTION ( 'NONE',  ( 0.0000000000000000000, 0.0000000000000000000, -1.000000000000000000 ) ) ;
#211 = DATE_AND_TIME ( #13, #9 ) ;
#212 = LOCAL_TIME ( 8, 16, 52.00000000000000000, #197 ) ;
#213 = DIRECTION ( 'NONE',  ( 0.0000000000000000000, -1.000000000000000000, 0.0000000000000000000 ) ) ;
#214 = AXIS2_PLACEMENT_3D ( 'NONE', #107, #193, #6 ) ;
#215 = LINE ( 'NONE', #18, #131 ) ;
#216 = VERTEX_POINT ( 'NONE', #142 ) ;
#217 = CARTESIAN_POINT ( 'NONE',  ( 625.0000000000000000, 1249.999999999999500, 3.000000000000000000 ) ) ;
#218 = COORDINATED_UNIVERSAL_TIME_OFFSET ( 8, 0, .BEHIND. ) ;
#219 = EDGE_CURVE ( 'NONE', #12, #62, #37, .T. ) ;
#220 = CARTESIAN_POINT ( 'NONE',  ( -625.0000000000000000, 0.0000000000000000000, 3.000000000000000000 ) ) ;
#221 = EDGE_CURVE ( 'NONE', #103, #77, #58, .T. ) ;
#222 = DESIGN_CONTEXT ( 'detailed design', #1, 'design' ) ;
#223 = VECTOR ( 'NONE', #15, 1000.000000000000000 ) ;
#224 = CARTESIAN_POINT ( 'NONE',  ( 625.0000000000000000, 1249.999999999999500, 0.0000000000000000000 ) ) ;
#225 = DIRECTION ( 'NONE',  ( 0.0000000000000000000, 1.000000000000000000, 0.0000000000000000000 ) ) ;
#226 = LINE ( 'NONE', #92, #106 ) ;
#227 = ORIENTED_EDGE ( 'NONE', *, *, #182, .F. ) ;
#228 = ORIENTED_EDGE ( 'NONE', *, *, #31, .T. ) ;
#229 = LOCAL_TIME ( 8, 16, 52.00000000000000000, #3 ) ;
#230 = CARTESIAN_POINT ( 'NONE',  ( 625.0000000000000000, -1250.000000000000000, 3.000000000000000000 ) ) ;
#231 = DIRECTION ( 'NONE',  ( -1.000000000000000000, 0.0000000000000000000, -0.0000000000000000000 ) ) ;
#232 = AXIS2_PLACEMENT_3D ( 'NONE', #35, #146, #54 ) ;
#233 = PLANE ( 'NONE',  #10 ) ;
#234 = CARTESIAN_POINT ( 'NONE',  ( -625.0000000000000000, -1250.000000000000000, 3.000000000000000000 ) ) ;
#235 = EDGE_CURVE ( 'NONE', #77, #12, #188, .T. ) ;
#236 = PERSON_AND_ORGANIZATION ( #40, #208 ) ;
#237 = APPLICATION_CONTEXT ( 'configuration controlled 3d designs of mechanical parts and assemblies' ) ;
ENDSEC;
END-ISO-10303-21;
